ARRIBA SAIA @ - LIBÉRA TONHO cifra letra fotas tablatura

cifra Brasil

Libera o toim - ARRIBA SAIA @

Intro: C Dm G C (2x)

e|-----------------------------------------------------------------
B|-----------------------------------------------------------------
G|-------5-4-2-0----------5-4-2-0----------7-5-4-----------7-5-4---
D|----2-5--------2----2-5---------2----4-7-------7-4----4-7------7-4-
A|-3-3------------3-3---------------5-5--------------5-5-------------
E|-----------------------------------------------------------------

"Arriba Saia e o sequestro do Toim.....
-Alô
-Alõ nada véio, se não pagar o resgate não leva o Toim não, viu?
-Minha nossa Senhora!
-É 10 conto viu?
-Isso tudo?"

C
Sequestraram o toim, sequestraram o toim o toim é
Dm G
meu amigo, eu vou pagar resgate eu vou pagar
C C7 F
resgate do meu toim querido, eu não quero polícia
G C Am F
pelo meio que os homen é pirigoso e se matar o toim
G C
e se matar o toim não vou comer gostoso

C
libera o toim que eu te dou dez conto
Dm
libera o toim que eu te dou dez conto
G
libera o toim que eu te dou dez conto
C
libera o toim que eu te dou dez conto

"-Meu amigo eu não tenho condição de pagar isso tudo
- Dá seus pulo meu véio!
- 10 conto cara?
- 10 conto cara!
- Tudo bem, tudo bem"

C
Sequestraram o toim, sequestraram o toim o toim é
Dm G
meu amigo, eu vou pagar resgate eu vou pagar
C
resgate do seu toim querido,
C
Sequestraram o toim, sequestraram o toim o toim é
Dm G
meu amigo, eu vou pagar resgate eu vou pagar
C C7
resgate do seu toim querido
F

eu não quero polícia
G C Am F
pelo meio que os homen é pirigoso e se matar o toim
G C C7
e se matar o toim não vou comer gostoso
F
eu não quero polícia
G C Am F
pelo meio que os homen é pirigoso e se matar o toim
G C
e se matar o toim não vou comer gostoso

O solo do refrão fica assim : VIOLÃO
e|-----------------------------------------------------------------
B|-----------------------------------------------------------------
G|-------5-4-2-0----------5-4-2-0----------7-5-4-----------7-5-4---
D|----2-5--------2----2-5---------2----4-7-------7-4----4-7------7-4-
A|-3-3------------3-3---------------5-5--------------5-5-------------
E|-----------------------------------------------------------------
C
libera o toim que eu te dou dez conto
Dm
libera o toim que eu te dou dez conto
G
libera o toim que eu te dou dez conto
C
libera o toim que eu te dou dez conto (2x o refrao)

(no diálogo continua a sequencia C Dm G C)
"-Ae bicho, libera o véio cara eu achei o dinheiro bicho
- Cê achou véio?
- Eu deposito aonde.. aonde hein?
- Na lixeira rosa
- No buêro, na ladeira?
- É.. na lixeira rosa
- Na cesta cor de rosa.. Tudo Bem cara, tudo bem.. brigado hein, seu sequestradô! tchau viu?

- E o fim tchau.. Graças a deus"

O solo do refrão fica assim :
e|-----------------------------------------------------------------
B|-----------------------------------------------------------------
G|-------5-4-2-0----------5-4-2-0----------7-5-4-----------7-5-4---
D|----2-5--------2----2-5---------2----4-7-------7-4----4-7------7-4-
A|-3-3------------3-3---------------5-5--------------5-5-------------
E|-----------------------------------------------------------------
G
libera o toim que eu te dou dez conto
C
libera o toim que eu te dou dez conto
Dm
libera o toim que eu te dou dez conto
G
libera o toim que eu te dou dez conto
 

TODAS AS MÚSICAS

   CIFRAS              VIDEO CLIPS             FOTOS                   LETRA             VIDEO AULA_
CIFRAS____ VIDEO____ FOTOS____LETRA DA MÚSICA____Aulas de Video

10 Melhores Headline Animator

Escolha pelo nome da música

Receba via email

Enter your email address:

Delivered by FeedBurner