FOTOS - VICTOR E LÉO

Fotos



Intro: C G Am F

INTRODUÇÃO :2x

E|------------15---------------------10--------------------8----------------------8---------
B|----------------------------------------------------10------------------------------------
G|-------12------12------------12-------12---------9-----9----9-------------10------10------
D|----14---14-------14------12----12-------12---7----------------10------10----10------10---
A|-15--------------------10-------------------------------------------8---------------------
E|------------------------------------------------------------------------------------------

Dedilhado durante a musica :

E|-----15-----------------10--------------8------------8-----------------------------------------
B|------------------------------------------10---------------------------------------------------
G|---------12----4x----------12----4x----------9-4x-------10------4x------------------------------
D|------------14---------------12-------7--------------------10-----------------------------------
A|--15----------------10-----------------------------8-------------------------------------------
E|-----------------------------------------------------------------------------------------------

C G
Joguei fora fotos de nós dois
Am
Reviver você não me faz bem
F
Nem vai me trazer o que já foi
C
Você mudou muito e eu também
G
Finjo que o tempo não passou
Am
Busco em outros olhos ver você
F
Fotos do que foi o nosso amor
C
Não revelam outra pessoa pra ser

(Refrão)
C G
Uma vida pra tirar você da minha
Am F C
Só seus flashes disparam o meu coração
G
Já rasguei as fotos mas em pensamento
Dm F C
Guardo cópias do seu beijo e solidão

(Solo)base: C G Am F

7x 3x 3x 4x 4x 5x
e|----------10-10----------------8--7-5--13--12-8--8--10--12----0---1-------------------------|
B|--8-------12-12---8----8-10---10--8-6--13--13-8--8--12--13----1---1-------------------------|
G|--9---------------9----9--9-----------------------------------2---2-------------------------|
D|--------------------------------------------------------------2---2-------------------------|
A|--------------------------------------------------------------0---3-------------------------|
E|------------------------------------------------------------------1-------------------------|



10 Melhores Headline Animator

Receba via email

Enter your email address:

Delivered by FeedBurner