TEM QUE SER VOCÊ - VICTOR E LÉO

Tem Que Ser Você



Nessa versão toque sem capotraste nas casas normais de cada nota.
Introdução: G, D (8x)

G, D (mesmo ritmo da introdução)
Um dia seus pés vão me levar
Onde as minhas mãos não podem chegar

(Riff 1)
C C7M Am C/A D
Me leva onde você for

(Riff 2)
C C7M Am C/A D
Estarei muito só sem o seu Amor

(Riff 3)
C C7M Am C/A D D4 D D4
Agora é a hora de dizer
G D Em C G
Que hoje eu te Amo
D Em C
Não vou negar
G D Em C G
Que outra pessoa
D Em C
não servirá
C
Tem que ser você
D
Sem por que, sem pra que
C
Tem que ser você
D G
Sem ser necessário entender

( G D )

(Riff 4) (4X)

e|3--2--2-------------|
B|3--3--3-------------|
G|------2-------------|
D|--------------------|

C C7M Am C/A D
Me leva onde você for

(Riff 2)
C C7M Am C/A D
Estarei muito só sem o seu Amor

(Riff 3)
C C7M Am C/A D D4 D D4
Agora é a hora de dizer

G D Em C G :
Que hoje eu te Amo :
D Em C :
Não vou negar :
G D Em C G :
Que outra pessoa :
D Em C :
não servirá : REFRÃO (2x)
C :
Tem que ser você :
D :
Sem por que, sem pra que :
C :
Tem que ser você :
D G :
Sem ser necessário entender :

(Refrão)

Pra encerrar no mesmo ritmo toque G D e em seguida faça o (Riff 5)
Concluindo em G.
Nota: Esse último sol se toca como uma conclusão,ou seja:
apenas faça um movimento suave de baixo para cima.

(Riff 1)
e|2-------------------|
B|3--3-0--------------|
G|2------2------------|
D|--------------------|

(Riff 2)
e|-2--3-2--2----------|
B|-3--3-3--3--3-0-----|
G|-2--2-2--2------2---|
D|--------------------|

(Riff 3)
e|-3-2-3-3------------|
B|-3-3-3-3--3-0-------|
G|-2-2-2-2------2-----|
D|--------------------|

(Riff 4)
e|3--2--2-------------|
B|3--3--3-------------|
G|------2-------------|
D|--------------------|

(Riff 5)(no momento em que se toca o D)
e|2-------------------|
B|3--3-0--------------|
G|2------------------|
D|--------------------|

Use o G invertido, ou seja: sua 1ªvariação!



10 Melhores Headline Animator

Receba via email

Enter your email address:

Delivered by FeedBurner