MUSICA DA OLIMPIADA



Esta música ficou sendo a música oficial das olimpiadas 


desde 1934 por causar um sentimento profundo de uma série de 


impulsos pisicológicos inesplicaveis segundo os maióres 


especialistas da época.


This music was being the official music of the olimpiadas ones since 1934 for according to causing a deep feeling of a series of inesplicaveis pisicológicos impulses big specialists of the time.



CARROAGEM DE FOGO



e|---------5---------------5-----------5--------------------
B|-----6-8---8--5~-----6-8---8~----6-8---8--5~---5-6-5------
G|--5---------------5------------5---------------------5-5~-
D|----------------------------------------------------------
A|----------------------------------------------------------
E|----------------------------------------------------------

SEGUNDA PARTE

e|---------------------------------------
B|---------------------------------------
G|--5-4-2-0--4--0--2----0--5-4-2-0--4----
D|--------------------3------------------
A|---------------------------------------
E|---------------------------------------

e|---------------------------------------
B|---------------------------------------
G|--5-4-2-0--4--0--2----0----------------
D|--------------------3--------2-3-2-----
A|-----------------------------------3-3-
E|---------------------------------------




10 Melhores Headline Animator

Receba via email

Enter your email address:

Delivered by FeedBurner