VAMOS FUGIR - SKANK

Vamos Fugir



Tom : A
Intro: F#m E9 F#m E9

Riff 1
e|------------------------------------------------------------------------------------|
b|14-14/12-12-12/10-10-10-9/10/9--------------14-14/12-12-12/10-10-10-9/10/9----------|
g|--------------------------------------------------------------------------------9-11|
d|-------------------------------11/9-------------------------------------------------|
a|------------------------------------12-11-7-9-----------------------------3h4-------|
E|---------------------------------------------------------------------------------|

Riff 2
e|--------------------------|
b|--12/10-10-------12/10----|
g|11--------9/11-11-----9/11|
d|--------------------------|
a|--------------------------|
E|--------------------------|

Riff 3
e|-----------------------|
b|--12/10-10-------------|
g|11--------9/11---------|
d|--------------11/9-9/7-|
a|----------------------9|
E|-----------------------|

A
Vamos fugir
E
Deste lugar, baby,
F#m (riff 2)
Vamos fugir
D
Tô cansado de esperar
E F#m
Que você me carregue
A
Vamos fugir
E
Pra outro lugar, baby,
F#m (riff 2)
Vamos fugir
D
Pra onde quer que você vá,
E F#m
Que você me carregue
A
Pois diga que irá,
E D
Irajá, Irajá,
Prá onde eu só veja você,
A
Você veja mim só,
E D
Marajó, Marajó
Qualquer outro lugar comum,
A
Outro lugar qualquer,
E D
Guaporé, Guaporé
Qualquer outro lugar ao sol,
A
Outro lugar ao sul
E D
Céu azul, céu azul
Onde haja só o meu corpo nu
F#m E F#m E (riff 1)
Junto ao seu corpo nu

A
Vamos fugir
E
Pra outro lugar, baby,
F#m (riff 2)
Vamos fugir
D
Pra onde haja um tobogã
E F#m
Onde a gente escorregue

A
Vamos fugir
E
Deste lugar, baby,
F#m (riff 2)
Vamos fugir
D
Tô cansado de esperar
E F#m
Que você me carregue
A
Pois diga que irá,
E D
Irajá, Irajá,
Prá onde eu só veja você,
A
Você veja mim só,
E D
Marajó, Marajó
Qualquer outro lugar comum,
A
Outro lugar qualquer,
E D
Guaporé, Guaporé
Qualquer outro lugar ao sol,
A
Outro lugar ao sul
E D
Céu azul, céu azul
Onde haja só o meu corpo nu
F#m E9 F#m E9 (riff 1)
Junto ao seu corpo nu
A
Vamos fugir
E
Pra outro lugar, baby,
F#m (riff 3)
Vamos fugir
D
Pra onde haja um tobogã
E F#m
Onde a gente escorregue
D
Todo dia de manhã
E9 F#m (riff 2)
Flores que a gente regue
D
Uma banda de maçã,
E F#m
Outra banda de reggae
D
Tô cansado de esperar
E F#m
Que você me carregue
D
Todo dia de manhã
E F#m (riff 2)
Flores que a gente regue
(D E F#m)2x
oo . . . .na. . .oo
D
Uma banda de maçã,
E F#m
Outra banda de reggae



10 Melhores Headline Animator

Receba via email

Enter your email address:

Delivered by FeedBurner