BILL HALEY - Rock Aroundcifra- letra video tablatura fotos cifra



cifra Brasil

Rock Around The Clock BILL HALEY cifra letra video tablatura

A A#
One, Two, Three O'clock, Four O'clock rock,
A A#
Five, Six, Seven O'clock, Eight O'clock rock.
A A#
Nine, Ten, Eleven O'clock, Twelve O'clock rock,
E E E
We're gonna rock around the clock tonight.
A
Put your glad rags on and join me hon',
A7
We'll have some fun when the clock strikes one.

(Refrão) D
We're gonna rock around the clock tonight,
A
We're gonna rock, rock, rock, 'till broad daylight,
E D A E
We're gonna rock we're gonna rock around the clock tonight.

A
When the clock strikes two, three and four,
A7
If the band slows down we'll yell for more.

(Rep. Refrão)

SOLO:

|---------------------------------------------------|
|---------------------------------------------------|
|---------------------------------------------------|
|---------------------------------------------------|
|---------------------------------------------------|
|-0-1-2-1-0-1-2-1-0-1-2-1-2-1-2---------------------|

|---------------------------------------------------|
|---------------------------------------------------|
|---------------------------------------------------|
|--------------------------------5-6----------------|
|------------------------------------5-7------------|
|-8-8-5-8-8-5-8-8-5-8-8-5-5-0-0----------5----------|

|---------------------------------------------------|
|---------------------------------------------------|
|---------------------------------------------------|
|---------------------2-2-2-2-----------------------|
|---------------------------------------------------|
|-7-6-5-4-3-2-1-0-----------------------------------|

A
When the chimes ring five, six, and seven,
A7
We'll be right in seventh heaven.
(Rep. Refrão)

A
When it's eight, nine, ten, eleven too,
A7
I'll be goin' strong and so will you.
(Rep. Refrão)

A
When the clock strikes twelve we'll cool off then,
A7
Start rockin' 'round the clock again.
(Rep. Refrão)


TODAS AS MÚSICAS



   CIFRAS              VIDEO CLIPS             FOTOS                   LETRA             VIDEO AULA_


CIFRAS____ VIDEO____ FOTOS____LETRA DA MÚSICA____Aulas de Video


10 Melhores Headline Animator

Escolha pelo nome da música

Receba via email

Enter your email address:

Delivered by FeedBurner