Bruno e morrone CHORAM AS ROSAS cifra letra video foto



cifra Brasil
VIDEO BRUNO E MARRONE  Choram as Rosas


Choram As Rosas BRUNO E MARRONE  cifra  letra tablatura

Introd. G D Em C9 G D Em C9

E|----------------------------------------|
B|----------------------------------------|
G|----------------------------------------|
D|----------------------------------------|
A|-----2-5----------0--3---3-3-3-3-2-0----|
E|-3-5-----3h2-0--3----------------------3|

E|----------------------------------------|
B|--------------------------7--8--5-------|
G|----------------------------------------|
D|----------------------------------------|
A|----2-5------------0-2------------------|
E|--5--------3h2-0------------------------|

(riff 1)

E|----------|
B|----------|
G|----------|
D|----------|
A|---2-3-5--|
E|-5--------|

G D/F#
Choram as rosas
C9 G
Seu perfume agora se transforma em lágrimas
D/F# C9
E eu me sinto tão perdido,
G
Choram as rosas
D/F#
Chora minha alma
C9 G
Como um pássaro de asas machucadas
D/F# C9
Nos meus sonhos, te procuro
G
Chora minh’alma

C9 Em D
Lágrimas, que invadem meu coração (uma vez ele canta,invadi,e outra ele canta
C9 Em D invadem)
Lágrimas, palavras da alma,
Em C9 D C9
Lágrimas, a pura linguagem do amor

G D Em7
Choram as rosas
C9 G
Porque não quero estar aqui
D/F# Em7
Sem seu perfume
C9 D/F# G
Porque já sei que te perdi
D Em
E entre outras coisas
G D C9
Eu choro por ti

solo:
E|----------------------------------|
B|-8-----8-10-12-10-----------------|
G|-----7-------------11--9-7-9------|
D|----------------------------------|
A|----------------------------------|
E|----------------------------------|

E|----------------------------------|
B|-8--------------------------------|
G|---9-7-----------------------7----|
D|---------9-7-5-7-5--------5-------|
A|-------------------7--------------|
E|----------------------8-8---------|

E|----------------------------------|
B|--12-13-15-15-13-12-10----12-10---|
G|-----------------------12-------12|
D|----------------------------------|
A|----------------------------------|
E|----------------------------------|

E|-----------15-14-------12---------|
B|------12---------15-12------------|
G|----------------------------------|
D|----------------------------------|
A|----------------------------------|
E|----------------------------------|

Base do solo: G D/F# C9 2x

G D/F#
Falta seu cheiro
C9 G
Que eu sentia quando você me abraçava
D/F# C9
sem teu corpo, sem teu beijo
G D/F#
Tudo é sem graça





TODAS AS MÚSICAS



   CIFRAS              VIDEO CLIPS             FOTOS                   LETRA             VIDEO AULA_


CIFRAS____ VIDEO____ FOTOS____LETRA DA MÚSICA____Aulas de Video


10 Melhores Headline Animator

Escolha pelo nome da música

Receba via email

Enter your email address:

Delivered by FeedBurner