BOB DYLAN -COCAINE - cifra letra tablatura video fotos



cifra Brasil

Cocaine BOB DYLAN -TABLATURA -CIFRA -LETRA - ESPECIAL VIDEO CLIP

Intro:

C
: . . . : . . . : . . . : . . .
-0-|-----------------|---------------0-|-------3-------0-|-----------------|
---|-----------3---1-|-----------------|-----------------|-------3---------|
---|---------------0-|-----------0-----|-----------------|---------------0-|
---|-----2-------2---|-----2-------2---|-----2-------2---|-----2-------2---|
---|-3-------3-------|-3-------3-------|-3-------3-------|-3-------3-------|
---|-----------------|-----------------|-----------------|-----------------|

F C F
G
: . . . : . . . : . . . : . . .
|-----------------|-----------------|-------0---------|-----------------|
|---1-------------|---1-------------|---1-------------|---1-------------|
|h2-------------0-|h2---------2---0-|---------------0-|h2-----2---0---0-|
|-----3-------3---|-----3-------3---|-----2-------2---|-----3-------0---|
|-0---------------|-0---------------|-3---------------|-0---------------|
|---------1-------|---------1-------|---------3-------|---------3-------|

C
: . . . : . . .
|-----------------|-----------------|
|---------------1-|---------------1-|
|-----------0-----|-----------0-----|
|-----2-------2---|-----2-------2---|
|-3---------------|-3---------------|
|---------3-------|---------3-------|
Yonder . . .

C
Yonder come my baby all dressed in red.
F/A
Hey baby, I'm better off dead.
C G *) C *) In subsequent verses:
Cocaine all around my brain. F/A G (as in the intro)

E7
Hey baby, won't you come here quick.
F
This old cocaine is making me sick.
C F/A G C
Cocaine all around my brain.

E7 F
: . . . : . . . : . . . : . . .
|-------0---------|-----------------|-----------------|-----------------|
|---------------3-|-------0---------|---1-------------|---1-----------0-|
|---1-------1-----|---1-------1---0-|h2-------------0-|h2---------2-----|
|-----2-------2---|-----2-------2---|-----3-------3---|-----3-------3---|
|-----------------|-----------------|-0---------------|-0---------------|
|-0-------0-------|-0-------0-------|---------1-------|---------1-------|

C F G C
: . . . : . . . : . . . : . . .
|-------0---------|-----------------|-----------------|-----------------|
|---1-------------|---1-----------0-|h1-------------1-|---------------1-|
|-----------0---0-|h2---------0-----|-----------0-----|-----------0-----|
|-----2-------2---|-----3-------0---|-----2-------2---|-----2-------2---|
|-3---------------|-0---------------|-3---------------|-3---------------|
|---------3-------|---------3-------|---------3-------|---------3-------|

Yonder come a baby all dressed in white,
hey baby won't you stay all night.
Cocaine all around my brain.

Hey mama, won't you come here quick.
This old cocaine is making me sick.
Cocaine all around my brain.

Yonder come a baby all dressed in blue.
Hey baby, what you're gonna do?
Cocaine all around my brain.

Hey baby, won't you come here quick.
This old cocaine is making me sick.
Cocaine all around my brain.

Well up and down 10th street, turned down main,
looking for a guy they call Cocaine.
Cocaine all around my brain.

Then I walked down 10th street, turned down Beale,
looking for a guy they call Lucille.
Cocaine all around my brain.

[instrumental verse + refrain]

Yonder come a baby all dressed in white,
hey baby won't you stay all night.
Cocaine all around my brain.

Hey baby, won't you come here quick.
This old cocaine is making me sick.
Cocaine all around my brain.

Lord, cocaine been on my head,
goddamn, cocaine my head,
cocaine all around my brain.










TODAS AS MÚSICAS



   CIFRAS              VIDEO CLIPS             FOTOS                   LETRA             VIDEO AULA_


CIFRAS____ VIDEO____ FOTOS____LETRA DA MÚSICA____Aulas de Video


10 Melhores Headline Animator

Escolha pelo nome da música

Receba via email

Enter your email address:

Delivered by FeedBurner