Eagles -Hotel California -(Cifra) + (Tablatura) + (Partitura) + (Letras)

Cópia de Cópia de 19502-ultrawave_guitar_multi_fx[1]   Eagles

Hotel California (Acústico)- Eagles Tablatura Cifra

 Bm                        F#
On a dark desert highway, cool wind in my hair
A E
Warm smell of colitas rising up through the air
G D
Up ahead in the distance, I saw a shimmering light
Em
My head grew heavy and my sight grew dim
F#
I had to stop for the night

Bm F#
There she stood in the doorway; I heard the mission bell
A E
And I was thinking to myself this could be heaven or this could be hell
G D
Then she lit up a candle, and she showed me the way
Em F#
There were voices down the corridor, I thought I heard them say

Chorus :

G D
Welcome to the Hotel California.
F# Bm7
Such a lovely place, such a lovely face
G D
Plenty of room at the Hotel California
Em F#
Any time of year (any time of year) you can find it here

----> Essa é a base durante toda a música

Agora a música com todos os solos da versão acústica...

Bm9 A/B
|-(9)-----------------------------------|-(X)-------------------------------| ( )
|-(7)-----------------5-7-7/87-5/7~~~~-|-(10)-------3-2--------------------| ( )-Tudo entre paren.
|-(7)-4-4h6p4p3-4-6-7-------------------|-(9)---2-4------0-2-2h4-2----------| ( ) eh tokdo p/ 1
|-(7)-----------------------------------|-(11)----------------------4h2-0h2-| ( ) violão q nao faz
|-(9)-----------------------------------|-(12)------------------------------| ( ) os solos iniciais
|-(7)-----------------------------------|-(9)-------------------------------| ( )

Em ( várias vezes ) F#7
|-(7)--------0------0------0------0|---7p0---10p0-|-----7-6-7-9-10-9-10-12/14-(2)-|
|-(8)------0------0------0------0--|--8-----8-----|---8-----------------------(2)-|
|-(9)----0------2------4------7----|-9-----9------|-9-------------------------(3)-|
|-(9)--2------4------5------9------|--------------|---------------(2)-------------|
|-(X)------------------------------|--------------|-------------(4)---------------|
|-(X)------------------------------|--------------|-----------(2)-----------------|

Agora entra somente a percussão...e depois...

Bm9 A/B
|-(9)----2h3p2---2-2---2-----------------|-(X)-----------------------
|-(7)----------5-----5---3---5p3---3-----|-(10)------3p2---2--2------
|-(7)--4-------------------------4---2/4-|-(9)---2-4-----4------2--4-
|-(7)------------------------------------|-(11)----------------------
|-(9)------------------------------------|-(12)----------------------
|-(7)------------------------------------|-(9)-----------------------

Em
------------------7-9-10-9-10-12-|---------0--------0--------0-
-----5-8-7-8p7p5------------------|-------0--------0--------0---
-6-7------------------------------|-----0--------2--------4-----
----------------------------------|--2--------4--------5--------
----------------------------------|-----------------------------
----------------------------------|-----------------------------

(F#7)
-------0-7p0---10-12-10----|---9-9h10p9p7-7h9p7/6----------------------------|
-----0-------0----------12-|-----------------------8-7-7-7-8-7-5-7-----------|
---7-----------------------|---------------------------------------7-6-------|
-9-------------------------|--------------------------------------------9-8--|
---------------------------|-------------------------------------------------|
---------------------------|-------------------------------------------------|

A próxima parte se repete por toda música...com algumas variações no refrão...
*** Tocado em violão de 12 cordas ***
Observação muito importante : Use uma pestaneira na 7ª casa e considere a casa 0 abaixo como a casa 7 !

|-----------0-----|------2-----|------0-------|----------0-|----------0-------|
|-------0---------|----0----0--|----3-----3---|------0-----|------1-----------|
|-----0---0---0-2-|--2----2----|--2-----2---2-|----0---0---|----0-----------0-|
|---2-------------|1-----------|0-------------|--2---------|--2-----2---0h2---|
|-----------------|------------|--------------|4-----------|3-----------------|
|-0---------------|------------|--------------|------------|------------------|

|-------3------|------------0---|-----------2---|
|-----0-----0--|--------1-------|-------0-------|
|---0-----0----|------0---0-----|---0-2---2-----|
|--------------|----2-----------|---------------|
|-2------------|--0-------------|-2-------------|
|-------------3|--------------0-|---------------|

*** Esse é o dedilhado no violão de nylon ***

B F#7 A E
e|-----------7-------|---------9---------|---------7--------|--------------7----|
B|-------7-----------|------7-------7----|------10----10----|---------7---------|
G|-----7---7-----7-9-|----9------9-------|---9-------9---9--|-------7---7-------|
D|---9---------------|--8----------------|-7----------------|----9--------------|
A|-------------------|-------------------|------------------|-11----------------|
E|-7-----------------|-------------------|------------------|-------------------|

G D E F#
e|--------------7-----|--------10--------|------------7-----------|-----------9-|
B|----------8---------|------10-----10---|-------8----------------|-------7-----|
G|--------7----------7|----7-----7-------|-----7------------------|---7-9---9---|
D|-----9------8--7h9--|------------------|---9-----9--------------|-------------|
A|-10-----------------|-9----------------|-7----------------------|-9-----------|
E|--------------------|------------------|------------------------|-------------|

Agora , na base do dedilhado , o outro violão de nylon faz isso :

Bm F# A E
|-------|------------|-------|---|
|-------|------------|-------|---|
|-------|------------|-------|---|
|---2-4-|-2-0h2p0----|-------|---|
|-5-----|---------4--|-4-5-7-|-2-|
|-------|------------|-------|---|
G D Em F#
|---------|---------|-------|-----------|
|---------|---------|-------|-----------|
|---------|---------|-------|-----------|
|---------|---2/4---|-2-4-5-|-4h5p4p2-4-|
|-2-4-5---|-4-----5-|-------|-----------|
|-------5-|---------|-------|-----------|--> Depois disso...começa a cantar...

Verso 1
Bm F#
On a dark desert highway, cool wind in my hair
A E
Warm smell of colitas, rising up through the air
G D
Up ahead in the distance, I saw a shimmering light
Em
My head grew heavy and my sight grew dim
F#
I had to stop for the night

Verso2
Bm F#
There she stood in the doorway; I heard the mission bell
A E
And I was thinking to myself this could be heaven or this could be hell
G D
Then she lit up a candle, and she showed me the way
Em F#
There were voices down the corridor, I thought I heard them say

Violão 1 -> Simultaneamente com o verso 2
e|-----------|-----------|-----------|-----2-----------0-|
B|---5-5h7---|---3-3h5---|---2-2h3---|-----3-----3-----0-|
G|-7~6-6---6-|-6~4-4---4-|-4~2-2---2-|---2-----2-2---2---|
D|-9~------8-|-7~------6-|-5~------4-|-0-----0-----0---2-|
A|-----------|-----------|-----------|-------------------|
E|-----------|-----------|-----------|-------------------|

O 1º Refrão fica assim...

D|---------5--|
A|---1-2-4-5--| ---> Isso é um 'pré-refrão'
E|-2----------|

G D
Welcome to the Hotel California.
B|-3-3--3--3--------|
G|-2-2--4--2-/6-4-2-|
D|-----------/7-5-4-|
A|------------------|

F# Bm
Such a lovely place (sucha lovely place) such a lovely face
D|---------2-4-5-|
A|2--4--5--------|


G D
Plenty of room at the Hotel California
E|-9--9--9-7-75-5-|
B|-10-10-108-87-7-|
Em F#
Any time of year (any time of the year) you can find it here

O dedilhado do violão de 12 cordas no refrão fica assim:

G D F# Bm7
Welcome to the Hotel California...Such a lovely place, such a lovely face

|----------0-------|-------3-------|------------0--|-----------0--------|
|------1-----------|-----0-----0---|--------1------|-------0------------|
|----0-----------0-|---0-----0-----|------0---0----|-----0---0---0-2----|
|--2-----2---0h2---|---------------|----2----------|---2----------------|
|3-----------------|-2-------------|--0------------|--------------------|
|------------------|--------------3|-------------0-|-0------------------|

G D Em F#
Plenty of room at the Hotel California...Any time of year you can find it here

|----------0-------|-------3-------|------------0--|------------2-------|
|------1-----------|-----0-----0---|--------1------|-------0------------|
|----0-----------0-|---0-----0-----|------0---0----|---0-2----2---------|
|--2-----2---0h2---|---------------|----2----------|--------------------|
|3-----------------|-2-------------|--0------------|-2------------------|
|------------------|--------------3|-------------0-|--------------------|

Verso 3
Bm F#
Her mind is Tiffany twisted, she got the Mercedes bends
A E
She got a lot of pretty, pretty boys that she calls friends
G D
How they dance in the courtyard, sweet summer sweat
Em F#
Some dance to remember, some dance to forget

Verso 4
Bm F#
So I called up the captain; "Please bring me my wine." He said:
A E
"We haven't had that spirit here since nineteen sixty-nine"
G D
And still those voices are calling from far away
Em F#
Wake you up in the middle of the night, just to hear them say

Violão 1 -> Simultaneamente com o verso 4
e|-------------------------------------------|-----2-----------0-|
B|---5-5h7---5-5h7---3-3h5---2-2h3---2-2h3---|-----3-----3-----0-|
G|-7~6-6---6-6-6---6-4-4---4-2-2---4-2-2---2-|---2-----2-2---2---|
D|-9~------8-------7-------6-------5-------4-|-0-----0-----0---2-|
A|-------------------------------------------|-------------------|
E|-------------------------------------------|-------------------|

O 2º Refrão fica assim...

D|---------5--|
A|---1-2-4-5--| ----> 'pré-refrão'
E|-2----------|

G D
Welcome to the Hotel California
E|-9--9-7-7-7-75-5-5-|
B|-10-108-8-8-87-7-7-|

F# Bm
Such a lovely place, (such a lovely place) such a lovely face
D|---------2-4-5-|
A|2--4--5--------|

G D
They livin' it up at the Hotel California
E|-7-7-75-52-2-|
B|-8-8-87-73-3-|
Em F#
What a nice surprise, (what a nice surprise) give your alibis

Nesse refrão o dedilhado no violão de 12 cordas é igual ao do 1º,só muda no final:

G D Em F#
Welcome to the Hotel California...Such a lovely place , such a lovely face

|----------0-------|-------3-------|------------0--|-----------0--------|
|------1-----------|-----0-----0---|--------1------|-------0------------|
|----0-----------0-|---0-----0-----|------0---0----|-----0---0---0-2----|
|--2-----2---0h2---|---------------|----2----------|---2----------------|
|3-----------------|-2-------------|--0------------|--------------------|
|------------------|--------------3|-------------0-|-0------------------|

G D Em F#
They livin' it up at the Hotel California...What a nice surprise , give your alibis

|----------0-------|-------3-------|------------0--|---|
|------1-----------|-----0-----0---|--------1------|---|
|----0-----------0-|---0-----0-----|------0---0----|---|
|--2-----2---0h2---|---------------|----2----------|---|
|3-----------------|-2-------------|--0------------|-2-|
|------------------|--------------3|-------------0-|---|

Verso 5
Mirrors on the ceiling, the pink champagne on ice
And she said "We are all just prisoners here, of our own device"
And in the master's chambers, they gathered for the feast
They stab it with their steely knives, but they just can't kill the beast

---> Nessa parte da música o dedilhado é feito somente pelo violão de 12 cordas
com acompanhamento do baixo e é mais lento.

Verso 6
Bm F#
Last thing I remember, I was running for the door
A E
I had to find the passage back to the place I was before
G D
"Relax" said the nightman, "We are programmed to receive"
Em F#
"You can check out anytime you like, but you can never leave"

1º solo -> 5:35

Bm F#
|-------|---------------------|-7-5-3-2--|
|-------|---------------------|----------|
|-----6-|9--9-9-9-97-6-9-7-6-|-7-6-4-3--|
|-8-9---|---------------------|----------|
|-------|---------------------|----------|
|-------|---------------------|----------|
A E
|-9-10-12-12-12-12~~~12-10-9----10-9------------------|
|----------------------------12------12-10-9----------|
|---------------------------------------------9-------|
|-----------------------------------------------9-----|
|-------------------------------------------------9h11|
|-----------------------------------------------------|
G D
|-------------------------------------------------------|
|-------------------------------------------------------|
|----------------------------2/4-2-----------------4----|
|--------------2----4-2--5-4--------12(harmônico!)---4--|
|-----0-2--5-4---5--------------------------------------|
|-2-3---------------------------------------------------|

Em F#7
|-0------0------0-------0-|---2----------2-2-|
|---0------0------0-----0-|-----2----------2-|
|-----0------0------0---0-|-------3----------|
|-------2------2------2---|---------4------4-|
|-------------------------|-----------4------|
|-------------------------|-2-----------2----|
----> Faça o 'Em' e o 'F#7' 'passando' os dedos por todas as cordas!
(Escute a música para conseguir)

2º Solo --> ( o 2º solo entra no meio do último 'F#7') 1º JEITO:

meio do F#7
|--------------------------------------------------------------------------------|
|--------------------------------------------------------------------------------|
|-------------------9-11--11h12p11p9-11----9-11-11h12p11p9-9h11p97-7h9p76------|
|-9-9h11p9p8-9-11-12--------------------12----------------------------------9----|
|--------------------------------------------------------------------------------|
|--------------------------------------------------------------------------------|
F# A
|-------------------14-------|--------------------------|
|-------12-14-12-11----------|--7-7-7-5-5-5-------------|
|---6-9----------------------|--------------7-7-6-4-----|
|-8---------------------12-7|----------------------7-6-|
|----------------------------|--------------------------|
|----------------------------|--------------------------|
E G
|------------------------0---|--------------------------------------3--|
|----------------------------|----------------------------------3-5----|
|-7-7h9p7p6--6h7p6p4---------|------------------2-4-4h6p4p3-4-6--------|
|--------------------7-6-----|--2-4--5h7p5p4-5-------------------------|
|----------------------------|-----------------------------------------|
|----------------------------|-----------------------------------------|
D Em
|-/5-5-5-5/7-5-3/5-|---------------------- |-------3p0---7p3-0-10p7---12p10----|
|-/7-7-7-7/8-7-5/7-|-----------------0h2h3-|-5p0-------0------------8-------12|
|------------------|---------0h1h2h3-------|-----0-----------------------------|
|------------------|-0h2h3h4---------------|-----------------------------------|
|------------------|---------------------- |-----------------------------------|
|------------------|---------------------- |-----------------------------------|
F#
|-2-2h3p2p0---0h2-0-------------------0-|
|-----------3-------3-2h3p2p0-2-3p2-3---|
|---------------------------------------|
|---------------------------------------|
|---------------------------------------|
|---------------------------------------| OU...

2º JEITO: -> Só muda o começo...na verdade ele toca assim mesmo...
meio do F#7
|------------------------------------------------------------------|
|-----------------5-7-7h8p7p5-7---5-7-7h8p7p5-5h7p53-3h5p32------|
|-4-4h6p4p3-4-6-7---------------7-----------------------------4----|
|------------------------------------------------------------------|
|------------------------------------------------------------------|
|------------------------------------------------------------------|
F# A
|-------7-9-7----14----------|--------------------------|
|---2-5-------11-------------|--7-7-7-5-5-5-------------|
|-3--------------------------|--------------7-7-6-------|
|-----------------------12-7|--------------------9-7-6-|
|----------------------------|--------------------------|
|----------------------------|--------------------------|
E G
|------------------------0---|--------------------------------------3--|
|----------------------------|----------------------------------3-5----|
|-7-7h9p7p6--6h7p6p4---------|------------------2-4-4h6p4p3-4-6--------|
|--------------------7-6-----|--2-4--5h7p5p4-5-------------------------|
|----------------------------|-----------------------------------------|
|----------------------------|-----------------------------------------|
D Em
|-/5-5-5-5/7-5-3/5-|---------------------- |-------3p0---7p3-0-10p7---12p10----|
|-/7-7-7-7/8-7-5/7-|-----------------0h2h3-|-5p0-------0------------8-------12|
|------------------|---------0h1h2h3-------|-----0-----------------------------|
|------------------|-0h2h3h4---------------|-----------------------------------|
|------------------|---------------------- |-----------------------------------|
|------------------|---------------------- |-----------------------------------|
F#
|-2-2h3p2p0---0h2-0-------------------0-|
|-----------3-------3-2h3p2p0-2-3p2-3---|
|---------------------------------------|
|---------------------------------------|
|---------------------------------------|
|---------------------------------------|

Essa última parte são os dois violões juntos...

O Violão 2 fais isso junto comm o Violão 1 antes de entrarem na parte abaixo:

Violão 2
e:|-7-6-7-9| |
|
Violão 1 |--> Juntos.
e:|-------0-| |
B:|-3p2-3---|------> Final do 2º solo. |

Violão 1 e Violão 2

Violão 1
Bm F#
e|------------------------------------|-----------------/6-|
B|-7p3----7p3----7p3----7p3----7p3----|-5p2---5p2---5p2----|
G|------4------4------4------4------4-|-----3-----3--------|

Violão 2
e|-10p7---10p7---10p7---10p7---10p7---|-9p6---9p6---9p6/14-|
B|------7------7------7------7------7-|-----7-----7--------|
G|------------------------------------|--------------------|

Violão 1
A E
e|-------------------------------|-----------------/4-|
B|-5p2---5p2---5p2---5p2---5p2---|-3p0---3p0---3p0----|
G|-----2-----2-----2-----2-----2-|-----1-----1--------|

Violão 2
e|-9p5---9p5---9p5---9p5---9p5---|-7p4---7p4---7p4/12-|
B|-----5-----5-----5-----5-----5-|-----5-----5--------|
G|-------------------------------|--------------------|

Violão 1
G D
e|-------------------------------|--------------------|
B|-3p0---3p0---3p0---3p0---3p0---|-3-----3-----3---/7-|
G|-------------------------------|---2-----2-----2----|
D|-----5-----5-----5-----5-----5-|-----4-----4--------|

Violão 2
e|-7p3---7p3---7p3---7p3---7p3---|-5p2---5p2---5-/-10-|
B|-----3-----3-----3-----3-----3-|-----3-----3--------|
G|-------------------------------|--------------------|

Violão 1
Em F# Bm
e|-----------------------------------|-------------------2-------------|-2-|
B|-----------------------------------|-2-----3p0---5p2-----3---3p2-3h5-|-3-|
G|-4p0---4p0---4p0---4p0---4p0---3h4-|---3-------------3-----4---------|-4-|
D|-----2-----2-----2-----2-----2-----|-----4-----4---------------------|-4-|
|-2-|
Violão 2
e|-3p0---3p0---3p0---3p0---3p0-------|-------2----6----7--------------|-7-|
B|-----0-----0-----0-----0-----0-2h3-|-5p2-----3----7----7------------|-7-|
G|-----------------------------------|-----3-----4----9----7-9p7-9/11-|-7-|
D|-----------------------------------|--------------------------------|-9-|

10 Melhores Headline Animator

Escolha pelo nome da música

Receba via email

Enter your email address:

Delivered by FeedBurner