Tom Jobim - Garot de Ipanema - (Cifra) + (Letra) + (Video) + (Fotos) + (Tablatura)

Cópia de Cópia de 19502-ultrawave_guitar_multi_fx[1] Tom Jobim Tom Jobim

site oficial: www.tomjobim.com.br

VIDEO GAROTA DE IPANEMA c/ TOM E VINICIUS

Garota de Ipanema

Tom: G
Intro:

e|---5-6-8-------------4-5--6--------0-1-2--3------|
B|--------------5-6-8------------1-3---------------|
G|---------5-7-----------------3-------------------|

Solo:

G7+/9 A7
e|------------------------------------------------|
B|-8-8--5-5-5---8-8--5-5-5---8-8--5-5-5---8-8-----|
G|------------7------------7------------7---------|
D|------------------------------------------------|
A|------------------------------------------------|
E|------------------------------------------------|

Am7 D7/9- G7+ D7/13 G7+
e|--------------------------------------------------|
B|-5-5-5---6-6---------5----------------------------|
G|-------7-----7-7-7-5---7-7-7-7-5-7--5-5-5-5-3-5---|
D|--------------------------------------------------|
A|--------------------------------------------------|
E|--------------------------------------------------|

G7+/9 A7
Olha que coisa mais linda mais cheia de graça
Am7
É ela a menina que vem e que passa

D7/9- Bm7 E7/9- Am7 D7/9-
No doce balanço caminho do mar
G7+/9 A7
Moça do corpo dourado do sol de Ipanema
Am7
O teu balançado é mais que um poema
D7/9- G7+
É a coisa mais linda que eu já vi passar

G#7+ C#7/9
Ah, porque estou tão sozinho
B7+ E7/9
Ah, porque tudo é tão triste
C7+ F7/9
Ah, a beleza que existe
Bm7 E7/9-
A beleza que não é só minha
Am7 D7/9-
Que também passa sozinha

G7+/9 A7
Ah, se ela soubesse que quando ela passa
Am7
O mundo inteirinho se enche de graça
D7/9- G7+
E fica mais lindo por causa do amor
C7/9 G7+
por causa do amor...
C7/9 G7+/9
por causa do amor...

----------------------------------------------

10 Melhores Headline Animator

Escolha pelo nome da música

Receba via email

Enter your email address:

Delivered by FeedBurner