Pimenta do Reino - PENSANDO EM VOCÊ - Cifra - Letra -Video - Foto - Tablatura

CIFRA BRASIL Pimentas do Reino
VIDEO -PENSANDO EM VOCÊ -PIMENTA DO REINO FULL

Pensando Em Você - PIMENTA DO REINO - Cifra - letra - Tablatura

Intro: C7+ Cm7 G/B  Am7 D7/9 G G7 C7+ Cm7 G/B G Am7 G/B C7+ D9

G D/F# Em
Estava satisfeito só em ser teu amigo
Bm C G/B
Mas o que será que aconteceu comigo?
Am D4/7
Aonde foi que eu errei
G D/F# Em
Às vezes me pergunto se eu não entendi errado
Bm C G/B
Grande amizade com estar apaixonado
Am D4/7
Se for só isso logo vai passar

C
Mas quando toca o telefone será você?
Cm7
O que eu estiver fazendo eu paro de fazer
G
E se fica muito tempo sem me ligar

Arranjo uma desculpa pra te procurar
Am7 G/B C D
Que tolo, mas eu não consigo evitar

(Refrão)
C D4/7 Bm
Porque eu só vivo pensando em você
E4 Am D4/7 G G7
É sem querer, você não sai da minha cabeça mais
C D4/7 Bm
E eu só vivo acordado a sonhar
E4 Am D4/7
Imaginar nós dois às vezes penso ser um sonho impossível

Ou uma ilusão terrível
C D4/7 Bm
Será? Eu já pedi tanto em oração
E4 Am
Que as portas do seu coração
D4/7 G G7
Se abrissem pra eu te conquistar
C D4/7 Bm
Mas que seja feita a vontade de Deus
E4 Am
Se Ele quiser então

Não importa quando onde ou como
Cm7 D9 G
Eu vou ter teu coração

Solo - G D/F# Em Bm C7+ Cm7 D7/4
e|------------------------------------------------10-7------------|
B|---------8---8----10-10h12-10-------8-10-10/12-------10-8-8/10--|
G|-----7-9---9--------------------7-9-----------------------------|
D|-7-9------------------------------------------------------------|
A|----------------------------------------------------------------|
E|----------------------------------------------------------------|

e|-------------------------------------10-|
B|-----------------7-8-8--8-12-10-8h10----|
G|-----9---7---7-9------------------------|
D|-7h9---9--------------------------------|
A|----------------------------------------|
E|----------------------------------------|

A partir daqui fica rolando alguns solos aleatoriamente durante o verso
e|------10--------10-10-10h12-10~--|--------|------10-|
B|-8h10----8h10--------------------|--------|-8h10----|
G|---------------------------------|-7-9-7~-|---------|
D|---------------------------------|--------|---------|
A|---------------------------------|--------|---------|
E|---------------------------------|--------|---------|

G D/F# Em
Faço tudo pra chamar tua atenção
Bm C
Vez em quando eu meto os pés pelas mãos
G/B
Engulo a seco o ciúme
Am
Quando outro apaixonado quer
D4/7
Tirar de mim sua atenção
G D/F# Em
Coração apaixonado é bobo
Bm
Um sorriso teu e eu me derreto todo
C G/B
O seu charme o seu olhar
Am D4/7
Sua fala mansa me faz delirar

C
Mas quanta coisa aconteceu e foi dita
Cm7
Qualquer mínimo detalhe era pista
G
Coisas que ficaram para trás

Coisas que você nem lembra mais
C
Mas eu guardo tudo aqui no meu peito
Cm7
Tanto tempo estudando seu jeito
G
Tanto tempo esperando uma chance

Sonhei tanto com esse romance
Am7 G/B C D4/7
Que tolo, mas eu não consigo evitar

(Repete o Refrão)
(Final)

e|-----------------------------------10----------------|
B|-10h12-10--12-8h10-8------8---8-10----10-8-----------|
G|----------------------7-9---9--------------9-7h9p9~--|
D|-----------------------------------------------------|
A|-----------------------------------------------------|
E|-----------------------------------------------------|
G D/F# Em Bm C G/B Am D
“Yeaaaaaaah! Yeaaaaeeeehh!! Oh! Oh! Nouuu!!!” ^^
_____________________________________________________________________
TODAS AS MÚSICAS 
CIFRAS VIDEO FOTOS LETRA DA MÚSICA

10 Melhores Headline Animator

Escolha pelo nome da música

Receba via email

Enter your email address:

Delivered by FeedBurner