Legião Urbana - VENTO NO LITORAL -cifra-letra-video-fotos-tablatura



cifra Brasil Legião Urbana Aulas de Video

VIDEO VENTO NO LITORAL RENATO RUSSO - LEGIÃO URBANA 

Vento No Litoral- Renato Russo-cifra-letra-tablatura

Tom: C
Introd.: Am Em Am Em F C F C

Solo da introdução:
B|--5-3-1--| E|-7-5-3-| Esse solo se repete durante 2 vezes, depois vem:

B|--6-5-3--| B|-5-3-1-|


Esss solos agora o Dado vai fazendo enquanto a base vai tocando as notas normais
Am Em
E|-----0----------|------7----5---3-|
B|----------3---1-|---------5---5---|
G|--2-----2---2---|---9-------------|2 vezes
D|----------------|-----------------|
A|----------------|-----------------|
E|----------------|-----------------|

E|-------------|
B|---5---3---1-|
G|-------------|
D|-5---3---2---| Esses solos eles vão acompanhando a musica, tente faze-los, tem q
A|-------------| escutar a musica e pegar a pratica.
E|-------------|

E|-------------|
B|---6---5---3-|
G|-------------|
D|-7---5---3---|
A|-------------|
E|-------------|

E|-------------|
B|---5---3---1-|
G|-------------|
D|-5---3---2---|
A|-------------|
E|-------------|

Am Em
De tarde quero descansar, chegar até a praia
Am
Ver se o vento ainda está forte
Em
E vai ser bom subir nas pedras
C
Sei que faço isso pra esquecer
Bb
Eu deixo a onda me acertar
Am F G Am F G C F
E o vento vai levando tudo embora


F G Am F G C
E|-----------------------------|
B|--0-1~-1-3-0----0-1~-1-3-0---|
G|-------------2-------------5-|
D|-----------------------------|
A|-----------------------------|
E|-----------------------------|

Em
Agora está tão longe
Dm
Vê, a linha do horizonte me distrai:
G F
Dos nossos planos é que tenho mais saudade,
Em Dm
Quando olhávamos juntos na mesma direção
Bb
Aonde está você agora
Am F G Am F G Am
Além de aqui, dentro de mim?

E|----------------------------|
B|-1-0-1~-1-3-0----0-1~-3-0---|
G|--------------2-----------2-|
D|----------------------------|
A|----------------------------|
E|----------------------------|

Solo sobre o violão 1 da introdução
Am Em
E|----12-------------------------|
B|-----------15----13----12------|
G|-14-----14----14----14----12~--|
D|-------------------------------|
A|-------------------------------|
E|-------------------------------|

F C F F G Am F G
E|-------------------------------------------------------------------|
B|---5---3---1----6---5---3----5---3---1--0-1~-1-3-0----0-1~-1-3-0---|
G|---------------------------------------------------2-------------5-|
D|-5---3---2----7---5---3----5---3---2-------------------------------|
A|-------------------------------------------------------------------|
E|-------------------------------------------------------------------|

Cm
Agimos certo sem querer
G
Foi só o tempo que errou
Bb
Vai ser difícil sem você
A4 A Dm
Porque você está comigo o tempo todo
Quando vejo o mar
C
Existe algo que diz:
G Am G F
- A vida continua e se entregar é uma bobagem
Em A7 Dm
Já que você não está aqui,
Dm Bb G
O que posso fazer é cuidar de mim
C
Quero ser feliz ao menos
F Bb G
Lembra que o plano era ficarmos bem?

Am Em Am
E|----12-------------------------|----19----17-----15-|
B|-----------15----13----12------|-17----17-----17----|
G|-14-----14----14----14----12~--|--------------------|
D|-------------------------------|--------------------|
A|-------------------------------|--------------------|
E|-------------------------------|--------------------|

Am Em Am C G C G C F E4 E
- Ei, olha só o que eu achei: cavalos-marinhos

>> a base aqui faz C G C G e entra de volta no C
E|-----------|
B|-------6---|
G|-4-5-7-----|Quando chega no 6 vc vai joga um C em nota normal, assim fica
D|-----------|completamente igual a original, mais perto ainda da ao vivo.
A|-----------|(isso é na hora do C G C G C)
E|-----------|


Volta com a introdução, mais acompanha o ritmo, somente as notas: Am e Em duas vezes.

C
E|-------------|
B|---5---3---1-|
G|-------------|
D|-5---3---2---|
A|-------------|
E|-------------|

Em C
Sei que faço isso pra esquecer

Bb
E|-------------|
B|---6---5---3-|
G|-------------|
D|-7---5---3---|
A|-------------|
E|-------------|
Bb
Eu deixo a onda me acertar

Am G F G C
E|---------------------------|
B|---5---3---1--0-1~-1-3-0---|
G|-------------------------5-|
D|-5---3---2-----------------|
A|---------------------------|
E|---------------------------|

Am G F G C
E o vento vai levando tudo embora

F C
E|-----------------|---------------|
B|-----6----5----3-|----5---3----1-|
G|-----------------|---------------|
D|--3----3----3----|-5----3----2---|
A|-----------------|---------------|
E|-----------------|---------------|

Teclado do final:
E|-------------------------------------------------------|
B|-1--1-1-1-3-5-6--6-6-6-5-3-5--5-5-5-3-1-3--3-3-3-1-0-1-|
G|-------------------------------------------------------|2x
D|-2--2-2-2-3-5-7--7-7-7-5-3-5--5-5-5-3-2-3--3-3-3-2-0-2-|
A|-------------------------------------------------------|
E|-------------------------------------------------------|


_________________________________________________________________________________


TODAS AS MÚSICAS


CIFRAS           VIDEO          FOTOS        LETRA DA MÚSICA_____Aulas de Video


10 Melhores Headline Animator

Escolha pelo nome da música

Receba via email

Enter your email address:

Delivered by FeedBurner