Jorge e Mateus - DE TANTO TE QUERER - Cifra - Letra - Video - Fotos - Tablatura

CIFRA BRASIL JORGE E MATEUS Jorge e Mateus
SITE OFICIAL = www.jorgeemateus.com.br/

VIDEO - JORGE E MATEUS - DE TANTO TE QUERER - FUL


De Tanto Te Querer - Cifra - Letra - Tablatura

Intro.:
e|----5----5------5----5------5----5-------3----3-----------|
B|----3-----3-----2-----2-----3-----3------3-----3----------|
G|----2------2----2------2----2------2-----2------2---------|
D|----0--0--------2--2--------4--4---------0--0-------------|
A|----x-----------x-----------2------------x----------------|

D A/C#
Larga tudo e vem correndo,
Bm E7
vem matar minha vontade,
G Bm A
já faz tempo que eu tô sofrendo,
E A4 A
mereço um pouco de felicidade..
D A/C#
Larga tudo e vem correndo,
Bm E7
pra eu mergulhar no teu sorriso,
G Bm A E A4 A
me arranca desse inferno me leva pro seu paraíso..

Refrão
G Bm E7 G A
Eu não desisto do que eu quero mais não desespero, te espero...
D E7 G A
Na tarde quente ou madrugada fria, na tristeza ou na alegria...
D Em G
ficar sozinho não rola mais amor não se implora,
A D
nem se joga fora...
Em G
O amor a gente conquista e não há quem desista,
A D
se e o coração chora.

D A/C# Em
Chora com vontade de te ver,
G A9 D
chora com saudade de você,
A/C# Em
chora as vezes eu nem sei porque,
G A9 D A/C# E7
deve ser te tanto te querer.. ieeeeeeee ieeeee
G A9 D
de tanto amar você.

SOLINHO DO MEIO

D E G A
e|------------2---------------------3/2-------------------------I
B|--------3-5---5--3-5-3-5-3-5-3-3------5-5b7-3-3---------------I
G|--2-2-2-------------------------------------------------------I
D|--------------------------------------------------------------I
A|--------------------------------------------------------------I
E|--------------------------------------------------------------I

Repete refrão 2X
Volta em:

D A/C# Em
Chora com vontade de te ver,
G A9 D
chora com saudade de você,
A/C# Em
chora as vezes eu nem sei porque,
G A9 D A/C# E7
deve ser te tanto te querer... ieeeeeeee ieeeee
G A9 D A/C# E7 D
de tanto amar você... ieeeeeeee ieeeee
_____________________________________________________________________
TODAS AS MÚSICAS 
CIFRAS     VIDEO     FOTOS     LETRA DA MÚSICA

10 Melhores Headline Animator

Escolha pelo nome da música

Receba via email

Enter your email address:

Delivered by FeedBurner