Pitty - EQUALIZE - Cifra - Letra -Video - Foto - Tabalura

cifra Brasil Pitty Pitty
site oficial: www.pitty.com.br
VIDEO - EQUALIZE - PITTY - FULL

Equalize - PITTY - CIFRA  - LETRA - TABLATURA

Tom: D
Intro:

e|------------------------------------------------2---3r2----------|
B|--------------3-----------3-----------------3---3--------3-------|
G|--------0--4-----------------4--------0--4------2----------2-----|
D|--2--4-----------2--4--5--------2--4------------0------------0---|
A|-----------------------------------------------------------------|
E|-----------------------------------------------------------------|

e|------------------------------------------------2--|
B|--------------3-----------3-----------------3---3--|
G|--------0--4-----------------4--------0--4------2--|
D|--2--4-----------2--4--5--------2--4------------0--|
A|---------------------------------------------------|
E|---------------------------------------------------|

_Verso:

D Bm Em
As vezes se eu me distraio Se eu não me vigio um instante
F#m D Bm
Me transporto pra perto de você Já vi que não posso ficar tão solta
Em F#m G A
Me vem logo aquele cheiro, que passa de você pra mim num fluxo perfeito

Bm F#m Em
Enquanto vc conversa e me beija, ao mesmo tempo eu vejo,
D Bm A
as suas cores no seu olho tão de perto
Bm Em F#m G
Me balanço devagar, como quando vc me embala o ritmo rola fácil
A (Bm)

parece que foi ensaiado

_Pré-Refrão:

Bm A G Gm
E eu acho que eu gosto mesmo de você Bem do jeito que você é

_Refrão:

D Bm D Bm D Bm A G
Eu vou equalizar você, numa freqüência que só a gente sabe
D Bm D Bm D Bm A G
Eu te transformei nessa canção, pra poder te gravar em mim

_Pós-Refrão:

e|------------------------------------------------------------------10-|
B|-------------------------------------5----5-----5-----5---5--5/7-----|
G|--------------------------------7------7----7-----7-----7------------|
D|-----------------------7-7-7-9-----0----0-----0-----0----------------|
A|--------------5-5-7/9------------*-----------------------------------|
E|--3--3-3-5/7---------------------------------------------------------|
* Sem distorção

_Verso 2:

e|----------14---17--15--14------------|--14---17--15--14---------|-------
B|---------------------------14----15--|--15---------------14-----|-------
G|---------------------------------14--|--14----------------------|-----12
D|-12---11-----------------------------|--------------------------|---12--
A|-12---11-----------------------------|--------------------------|-10----
E|-10---9------------------------------|--------------------------|-------
Adoro essa sua cara de sono e o timbre|
E que quase me mata de rir   | Porque nós dois
da sua voz que fica me dizendo coisas | quando tenta me convencer
| somos iguais
tão malucas | que eu só fiquei aqui |

e|------------------------------------------------3-2-------|
B|--------------3-----------3-----------------3---3---3-----|
G|--------0--4-----------------4--------0--4------2-----2---|
D|--2--4-----------2--4--5--------2--4------------0-------0-|
A|----------------------------------------------------------|
E|----------------------------------------------------------|
Até parece que você já tinha o meu manual de instruções,
porque você decifra os meus sonhos

e|--------------------------2---------------------------------------|
B|--------------3--------------3--------------3---8----------10-----|
G|--------0--4-----------------4--------0--4--------7-----7-----9---|
D|--2--4-----------2--4--5--------2--4-----------------5----------7-|
A|------------------------------------------------------------------|
E|------------------------------------------------------------------|
Porque você sabe o que eu gosto, e porque quando você me abraça,
o mundo gira devagar

E(*)
e|------------|
B|--------(**)| (*) Tocar o Mi dessa forma nessa parte
G|--------(9)-| (**) Tocar várias vezes
D|--------(9)-|
A|-7--7-7-(7)-|
E|-0--0-0-(0)-|

Em D Em
E o tempo é só meu e ninguém registra a cena,
D Bm
de repente vira um filme todo em câmera lenta

_Pré-Refrão:

Bm A G Gm
E eu acho que eu gosto mesmo de você Bem do jeito que você é

_Refrão: (2x)

D Bm D Bm D Bm A G
Eu vou equalizar você, numa freqüência que só a gente sabe
D Bm D Bm D Bm A G
Eu te transformei nessa canção, pra poder te gravar em mim

_Último:

e|----------------------------------|----------------------------------|
B|----------------------------------|----------------------------------|
G|--------------------------------7-|--------------------------------7-|
D|-----------------------7-7-7-9----|-----------------------7-7-7-9----|
A|--------------5-5-7/9-------------|--------------5-5-7/9-------------|
E|--3--3-3-5/7----------------------|--3--3-3-5/7----------------------|

e|------------------------------------------------|
B|---------------------------------------------15-|
G|----------------------------------7--7/11-------|
D|-----------------------7--7--7--9---------------|
A|--------------5-5-7/9---------------------------|
E|--3--3-3-5/7------------------------------------|
_____________________________________________________________________
TODAS AS MÚSICAS 
CIFRAS VIDEO FOTOS LETRA DA MÚSICA

10 Melhores Headline Animator

Escolha pelo nome da música

Receba via email

Enter your email address:

Delivered by FeedBurner