Nx Zéro - Razões e Emoções - (Cifra) + (Letra) + (Video) + (Fotos) + (Tablatura) = Nx 0

Cópia de Cópia de 19502-ultrawave_guitar_multi_fx[1] Nx Zero Nx Zero
NX ZÉRO 0  VIDEO  RAZÕES E EMOÇÕES FULL

Razões e Emoções NX ZÉRO 0

(Solo só a guitarra que toca)
E|-------------------------|
B|-6-6-6-6-6-6-6-6---------|
G|--8-8-8-8-8-8-8----------|
D|-------------------------|
A|-------------------------|
E|-------------------------|

(Solo os dois tocam) BASE:D#5 - Bb5 - Cm5 - Bb5
E|--------------------------------------------------------------------|
B|-6-6-6-6-9-9-8-8-6-6-6-6-9-9-8-8-6-6-6-6-9-9-8-8-6-6-6-6-6-6-6-6----|
G|--8-8-8-8-8-8-8-8-8-8-8-8-8-8-8-8-8-8-8-8-8-8-8-8-8-8-8-8-8-8-8-8---|
D|--------------------------------------------------------------------|
A|--------------------------------------------------------------------|
E|--------------------------------------------------------------------|

D#9 Bb/D
Dizer o que eu posso dizer
Cm Bb9
Se estou cantando agora pra você ouvir com outra pessoa
D#9 Bb/D
É que às vezes acho que não sou o melhor pra você
Cm Bb9 Fm
Mas às vezes acho que poderíamos ser o melhor pra nós dois
G5 Ab
só quero que saiba

Cm Ab
Entre razões e emoções a saída
D#9 Bb9
É fazer, valer a pena
Cm Ab D#9 Bb9
Se não agora depois não importa por você, posso esperar

(Solo) BASE:D#5 - Bb5 - Cm5 - Bb5
E|--------------------------------------------------------------------|
B|-6-6-6-6-9-9-8-8-6-6-6-6-9-9-8-8-6-6-6-6-9-9-8-8-6-6-6-6-6-6-6------|
G|--8-8-8-8-8-8-8-8-8-8-8-8-8-8-8-8-8-8-8-8-8-8-8-8-8-8-8-8-8-8-8-----|
D|--------------------------------------------------------------------|
A|--------------------------------------------------------------------|
E|--------------------------------------------------------------------|

D#9 Bb/D
Sentir ,o que posso sentir
Cm Bb9
Se em um segundo tudo acabar não vou ter como fugir

D#9 Bb/D
É que às vezes acho que não sou o melhor pra você
Cm Bb9 Fm
Mas às vezes acho que poderíamos ser o melhor pra nós dois
G5 Ab
só quero que saiba

Cm Ab
Entre razões e emoções a saída
D#9 Bb9
É fazer valer a pena
Cm Ab D#9 Bb9
Se não agora depois não importa por você posso esperar
Ab9
Posso esperar, posso esperar

Solo: ( Cm Ab D#9 Bb9 ) 2X

Cm Ab
Entre razões e emoções a saída
D#9 Bb9
É fazer valer a pena
Cm Ab D#9 Bb9
Se não agora depois não importa por você posso esperar

Cm Ab
(Isso vai passar)
Entre razões e emoções a saída

D#9 Bb9
(Tudo vai melhorar)
É fazer valer a pena
Cm Ab D#9 Bb9
(isso vai passar) (Tudo vai melhorar)
Se não agora depois não importa por você posso esperar
Ab9
(posso esperar)
posso esperar
Ab9
(posso esperar)
posso esperar
Ab9
(posso esperar)
posso esperar
Ab9
(posso esperar)
posso esperar...

(Solo so a guitarra que toca no fim)
E|-------------------------|
B|-6-6-6-6-6-6-6-6---------|
G|--8-8-8-8-8-8-8----------|
D|-------------------------|
A|-------------------------|
E|-------------------------|

10 Melhores Headline Animator

Escolha pelo nome da música

Receba via email

Enter your email address:

Delivered by FeedBurner