Legião Urbana - Indios -cifra-letra-video-fotos-tablatura



cifra Brasil Legião Urbana Aulas de Video
VIDEO -INDIOS -RENATO RUSSO -LEGIÃO URBANA -FULL



Índios -cifra -letra -tablatura

Introdução:

Violão base:
e|----------------------------------------------------|
B|-----8-----8-----1-----1-----3-----3-----3-----3----|
G|-----0-----0-----0-----0-----0-----0-----0-----0----| 3X
D|-----9-----9-----5-----5-----4-----4-----4-----4----|
A|-10-----------3-----------5-----------5-------------|
E|-------10-----------3-----------5-----------5-------|

Violão solo:
e|-3---3-3----5--7-----------|
B|-------------------7--5--3-| 3X
G|-4--4-4-4---5--7-----------|
D|-------------------7--5--4-|

O violão base toca essa sequêcia ( Am7 Gsus4/B C D Bm Em ) 2X acompanhando o solo:

e|---3-2-3---3-2-3---3-2-3---3-2-3----5-3-5---5-3-5---5-3-5---5-3-5-|
B|-1-------1-------1-------1--------3-------3-------3-------3-------|

e|---7-5-7---7-5-7---7-5-7---7-5-7----7-5-7---7-5-7---7-5-7---7-5-7-|
B|-3-------3-------3-------3--------5-------5-------5-------5-------|

e|---8-7-8---8-7-8---8-7-8---8-7-8----8-7-8---8-7-8---8-7-8---8-7-8-|
B|-5-------5-------5-------5--------7-------7-------7-------7-------|

e|---10-8-10---10-8-10---10-8-10---10-8-10-|
B|-7---------7---------7---------7---------|

e|---10-8-10---10-8-10---10-8-10---10-8-10-|
B|-8---------8---------8---------8---------|

Am7 Gsus4/B C
Quem me dera, ao menos uma vez,
D
Ter de volta todo ouro que entreguei
Bm
A quem conseguiu me convencer que era prova de amizade
Em
Se alguém levasse embora até o que eu não tinha
Am7 Gsus4/B C
Quem me dera, ao menos uma vez,
D
Esquecer que acreditei que era por brincadeira
Bm
Que se cortava sempre um pano-de-chão
Em
De linho nobre e pura seda.
Am7 Gsus4/B C
Quem me dera, ao menos uma vez,
D
Explicar o que ninguém consegue entender:
Bm Em
Que o que aconteceu ainda está por vir e o futuro não é mais como era antigamente.
Am7 Gsus4/B C
Quem me dera, ao menos uma vez,
D
Provar que quem tem mais do que precisa ter
Bm
Quase sempre se convence que não tem o bastante
Em
E fala demais por não ter nada a dizer
Am7
Quem me dera, ao menos uma vez,
D
Que o mais simples fosse visto como o mais importante,
Bm
Mas nos deram espelhos
Em
E vimos um mundo doente.
Am7 Gsus4/B C
Quem me dera, ao menos uma vez,
D
Entender como um só Deus ao mesmo tempo é três
Bm
E esse mesmo Deus foi morto por vocês
Em
É só maldade então, deixar um Deus tão triste

C Bm Am D/F#
Eu quis o perigo e até sangrei sozinho
G D/F# Em
Entenda, assim pude trazer você de volta pra mim,
C
Quando descobri que é sempre só você
D G D/F#
que me entende do inicio ao fim
Em C D
E é só você que tem a cura para o meu vício de insistir nessa saudade que eu sinto
F G
De tudo que eu ainda não vi...

O violão base toca essa sequêcia ( Am7 Gsus4/B C D Bm Em ) 2X acompanhando o solo:

e|---3-2-3---3-2-3---3-2-3---3-2-3----5-3-5---5-3-5---5-3-5---5-3-5-|
B|-1-------1-------1-------1--------3-------3-------3-------3-------|

e|---7-5-7---7-5-7---7-5-7---7-5-7----7-5-7---7-5-7---7-5-7---7-5-7-|
B|-3-------3-------3-------3--------5-------5-------5-------5-------|

e|---8-7-8---8-7-8---8-7-8---8-7-8----8-7-8---8-7-8---8-7-8---8-7-8-|
B|-5-------5-------5-------5--------7-------7-------7-------7-------|

e|---10-8-10---10-8-10---10-8-10---10-8-10-|
B|-7---------7---------7---------7---------|

e|---10-8-10---10-8-10---10-8-10---10-8-10-|
B|-8---------8---------8---------8---------|

Am7 Gsus4/B C
Quem me dera, ao menos uma vez,
D
Acreditar por um instante em tudo que existe
Bm
E acreditar que o mundo é perfeito
Em
E que todas as pessoas são felizes
Am7 Gsus4/B C
Quem me dera, ao menos uma vez,
D
Fazer com que o mundo saiba que seu nome
Bm
Está em tudo e mesmo assim
Em
Ninguém lhe diz ao menos obrigado.
Am7 Gsus4/B C
Quem me dera, ao menos uma vez,
D Bm
Como a mais bela tribo, dos mais belos índios,
Em
Não ser atacado por ser inocente.

C Bm Am D/F#
Eu quis o perigo e até sangrei sozinho
G D/F# Em
Entenda, assim pude trazer você de volta pra mim,
C
Quando descobri que é sempre só você
F G D/F#
que me entende do inicio ao fim
Em C D
E é só você que tem a cura para o meu vício de insistir nessa saudade que eu sinto
F G
De tudo que eu ainda não vi...
C F
Nos deram espelhos e vimos um mundo doente
G
Tentei chorar e não consegui.


Solo final:

G D/F# G
e|----------------------------------------------------------------------------|
B|------12--------10---------8-------7--------5------3---------5------8-------|
G|----------0--------0----------0-------0--------0------0--------0------0-----|
D|-12----------12---------9--------7--------5-------4------4/5----5/9---------|
A|----------------------------------------------------------------------------|
E|----------------------------------------------------------------------------|
G D/F# G
e|--------------------------------------------------------------2-2--2-2------|
B|------8-------7----------5--------3---------1-------1---------3-3--2-2------|
G|----------0------0----------0--------0--------0-------0-------2-2--0-0------|
D|-9----------7----------5-------4--------2---------0-----------0-0--0-0------|
A|--------------------------------------------------------------0-0--2-2------|
E|--------------------------------------------------------------0-0--3-3------|
G D/F# G
e|--------------------------------------------------------------2-2--2-2---3--|
B|------8-------7----------5--------3---------1-------0---------3-3--2-2------|
G|----------0------0----------0--------0--------0-------0-------2-2--0-0------|
D|-9----------7----------5-------4--------2---------0-----------0-0--0-0------|
A|--------------------------------------------------------------0-0--2-2------|
E|--------------------------------------------------------------0-0--3-3------|





TODAS AS MÚSICAS


CIFRAS        VIDEO        FOTOS       LETRA DA MÚSICA_______Aulas de Video


10 Melhores Headline Animator

Escolha pelo nome da música

Receba via email

Enter your email address:

Delivered by FeedBurner