Vitor e Léo - Fada - (Cifra) + ( Letra) + ( Fotos) + (Video) + (Tablatura)

Cópia de Cópia de 19502-ultrawave_guitar_multi_fx[1] Victor e Leo Veja fotos de Victor e Leo

site oficial: http://www.victoreleo.com

VIDEO - FADA AO VIVO - VITOR E LÉO


Fada

Intro.: A F#m (2X) - Usa-se bastante dedilhados na música, tenha como base o solo ...

A F#m A F#m
Fada, fada querida, dona da minha vida

E F#m E
Você se foi, levou meu calor, você se foi, mas não me
F#m E
levooooou

E|-------------------------
B|-------12----------------
G|-11h13---13-11-9-11------
D|--------------------7----
A|-------------------------
E|-------------------------

A F#m A F#m
Lua, lua de encanto, ouça pra quem eu canto
                    E|--9--9---12/12-12-
                     B|--10-10--12/14-14-                                                                              
E F#m E F#m
Ela levou minha magia, mas ela é minha alegria

D E A
Vejo uma luz, uma estrela brilhar, sinto um cheiro de
F#m
perfume no ar
D E D
Vejo minha fada e sua vara de condão, tocando meu
E A
coração

SOLINHO:

E|--9--9--9---7-7-7---5-5-5---------
B|--10-10-10--9-9-9---7-7-7---------

Refrão:
A F#m
Madrugada de amor que não vai acabar
A F#m
Se estou sonhando, não quero mais acordar
D E A
Minha história linda, meu conto de amor
E A F#m
Algo aqui me diz que essa paixão não é em vão
A F#m
O meu sentimento é bem mais que uma emoção
D E D E A
Eu espero o tempo que for, minha fada do amor

Solo: A F#m A F#m D E D E A E

solo repassado e corrigido:
e|---5-5------5/7--7/9/5-5---9--9--9--9/10-/12-12-10-9-----|
b|5h7-7---5h7---------------10-10-10-10/12-/14-14-12-10----|
G|---------------------------------------------------------|
D|---------------------------------------------------------|
A|---------------------------------------------------------|
E|---------------------------------------------------------|

e|-17-17-17-17--16-16-16-16------9---7--5---------------------------|
B|----------------------------5/7-----------------------------------|
G|---------------------------------7--6---6/7-7-7/9------2-1--------|
D|----------------------------------------------------0h2---2-2/4---|
A|------------------------------------------------------------------|
E|------------------------------------------------------------------|

D
Repete> Vejo uma luz... P/ frente

10 Melhores Headline Animator

Escolha pelo nome da música

Receba via email

Enter your email address:

Delivered by FeedBurner