Vitor e Léo - Vida Boa - (Cifras) + (Letra) + (Video) + (Tablatura) + (Foto)

Cópia de Cópia de 19502-ultrawave_guitar_multi_fx[1] Victor e Leo Veja fotos de Victor e Leo

site oficial: http://www.victoreleo.com

VIDEO QUE VIDA BOA - VITOR E LÉO AO VIVO

Vida Boa

Intro: F#

e|----------|
B|--6--7--9-|
G|----------|
D|----------|
A|--4--6--8-|

F#
Moro num lugar
C#
Numa casinha inocente do sertão
D#m
De fogo baixo aceso no fogão
Abm C#
Fogão à lenha ai ai e|----------|
B|--6--7--9-|
G|----------|
D|----------|
A|--4--6--8-|
F#
Tenho tudo aqui
C#
Umas vaquinha leiteira, um burro bão
D#m
Uma baixada ribeira, um violão
Abm C#
e umas galinha ai ai e|----------|
B|--6--7--9-|
G|----------|
D|----------|
A|--4--6--8-|
D#m
Tenho no quintal
Bbm
Uns pé de fruta e de flor
Abm
E no meu peito por amor
C#
Plantei alguém / Plantei alguém e|----------|
B|--6--7--9-|
G|----------|
D|----------|
A|--4--6--8-|

Refrão:
F#
Que vida boa
C#
Uôu uôu uôu que vida boa
D#m
Sapo caiu na lagoa
Abm C# (rep: F#)
Sou eu no caminho do meu sertão
F#
Vez e outra vou
C#
Na venda do vilarejo pra comprar
D#m
Sal grosso, cravo e outras coisa que fartar
Abm C#
Marvada pinga ai aie e|----------|
B|--6--7--9-|
G|----------|
D|----------|
A|--4--6--8-|
F#
Pego o meu burrão
C#
Faço na estrada a poeira levantar
D#m
Qualquer tristeza que for não vai passar
Abm C#
Do mata-burro ai ai e|----------|
B|--6--7--9-|
G|----------|
D|----------|
A|--4--6--8-|
D#m
Galopando vou
Bbm
Depois da curva tem alguém
Abm
Que chamo sempre de “meu bem”
C#
a me esperar / a me esperar e|----------|
B|--6--7--9-|
G|----------|
D|----------|
A|--4--6--8-|

10 Melhores Headline Animator

Escolha pelo nome da música

Receba via email

Enter your email address:

Delivered by FeedBurner