Vitor e Léo - O GRANFINO E O CAIPIRA - Cifra - Letra - Video - Fotos - Tablatura

Cópia de Cópia de 19502-ultrawave_guitar_multi_fx[1] Victor e Leo Veja fotos de Victor e Leo

site oficial: http://www.victoreleo.com

VIDEO - VITOR E LÉO - O CAIPIRA E O GRANFINO - FUL

O Granfino e o Caipira - VITOR E LÉO - CIFRA - LETRA - TABLATURA

e|-----------10--------10---------7---------10
B|------8----------7----------8---------7-----
G|----7---7------7---7------9---9-----7---7---

G
Sou um homem da cidade
C
To chegando de viagem, vim buscar
Am C
Minha moça, meu amor
Am C G D
A mais linda desse interior
G
Sei que aqui há um caipira
C
Que os seus olhos não tira da princesa
Am C
Mas eu chego de carrão
Am C G F#
Mostro o bolso e levo o seu coração
Bm G
Sou o tal caipira que o granfino falou
Em G
Não escondo a questão
Em G D F#
A moça é dona do meu coração
Bm G
Ele acha que o dinheiro compra o amor
Em G
Mas se fosse fácil assim
Em G D
A moça nem olhava para mim
Refrão:
A
Enquanto a gente briga por alguém
Bm
A gente fica sem ninguém
A G A D
Apronta e insiste mas no fim das contas a moça desiste


G
Vou fazer de tudo um pouco
C
Já estou ficando louco de desejo
Am C
Pus o terno e a gravata
Am C G D
Falei com os seus pais mas deu em nada
G
Ô caipira, dá um tempo
C
Desse jeito não agüento a insistência
Am C
Só por causa de você
Am C G F#
Ela não decide o que vai ser
Bm G
Ô granfino, o nosso caso não tem solução

Em G
Ela gosta de cowboy
Em G D F#
Com bota , espora e pinta de herói
Bm G
Vou selar o meu cavalo e dizer adeus
Em G
Em seu lugar ia também
Em G D
Em busca de quem só lhe queira bem

A
Enquanto a gente briga por alguém
Bm
A gente fica sem ninguém
A G A D
Apronta e insiste mas no fim das contas a moça desiste

Final:

e|-s12-10---------------------------------------------------
B|-------12-12p10-10----------------------------------------
G|------------------11p9-9----------------------------------
D|------------------------11/12-----------------------------
A|----------------------------------------------------------
E|----------------------------------------------------------

10 Melhores Headline Animator

Escolha pelo nome da música

Receba via email

Enter your email address:

Delivered by FeedBurner