Oasis -Wonderwall -(Cifra) + (Tablatura) + (Partitura) + (Fotos) + (Video)

Cópia de Cópia de 19502-ultrawave_guitar_multi_fx[1]  Oasis Oasis
Oasis Oasis Oasis Oasis Oasis Oasis Oasis

VIDEO OASIS

        site oficial: www.oasisinet.com

Wonderwall

- Usar Capo na 2ª casa (1 tom);
- As tablaturas são os dedilhados que são feitos nos versos em que eles se encontram sobre;
- A introdução é algo assim:

F#m7 A Esus4 B7sus4
f#|--3-3-3-3-3-3-3-3-3-3-3-3-3-3-3-3-3-3-3-3-3-3-3-3----
C#|--3-3-3-3-3-3-3-3-3-3-3-3-3-3-3-3-3-3-3-3-3-3-3-3----
A|--0-0-0-0-0-0-0-0-0-0-0-0-2-2-2-2-2-2-2-2-2-2-2-2---- 4X
E|--2-2-2-2-2-2-0-0-0-0-0-0-0-0-0-0-2-2-2-2-2-2-2-2----
B|--2-2-2-2-2-2-2-2-2-2-2-2---------0-0-0-0-0-0-0-0----
F#|--0-0-0-0-0-0-3-3-3-3-3-3----------------------------

F#m7 A Esus4 B7sus4
Today is gonna be the day that they're gonna throw it back to you
F#m7 A Esus4 B7sus4
By now you should've somehow realized what you gotta do
F#m7 A Esus4 B7sus4
I don't believe that anybody feels the way I do
Dadd9 Esus4 B7sus4
About you now

F#m7 A Esus4 B7sus4
Backbeat, the word is on the street that the fire in your heart is out
F#m7 A Esus4 B7sus4
I'm sure you've heard it all before but you never really had a doubt
F#m7 A Esus4 B7sus4
I don't believe that anybody feels the way I do
F#m7 A Esus4 B7sus4
about you now

f#|-------3----------2h3p2------------------------------
C#|----------3--------------3---------------------------
A|-------------0--------------2------------0-----0-----
E|---------------------------------------0---0h2-------
B|---3------------------------------0h2----------------
F#|-------------------------------0---------------------
Dadd9 Esus4 F#m7
And all the roads we have to walk are winding
f#|-------3----------2h3p2-------------------------------
C#|----------3--------------3----------------------------
A|-------------0--------------2------------0-0-----0----
E|---------------------------------------0-----0h2------
B|---3------------------------------0h2-----------------
F#|-------------------------------0----------------------
Dadd9 Esus4 F#m7
And all the lights that lead us there are blinding
f#|-------3----------2h3p2--------
C#|----------3--------------3-----
A|-------------0--------------2--
E|-------------------------------
B|---3---------------------------
F#|-------------------------------
Dadd9 Esus4
There are many things that I
f#|-----3-------3-------3------3---------0----------0---------0------
C#|-------3-------3-------3------3-----3---3----------3-----3---3----
A|------------------------------------------------------------------
E|--------------------------0-----0h2-------0h2-2------2-2--------0h2
B|------------------------------------------------------------------
F#|--3-------2--------0----------------------------------------------
A Esus4/Ab F#m7 A B7sus4
would like to say to you but I don't know how

Dadd9 F#m7 A F#m7 Dadd9 F#m7 A
Because maybe You're gonna be the one that saves me
F#m7 Dadd9 F#m7 A F#m7 Dadd9 F#m7 A F#m7 (deixe o F#m7 soar)
And after all You're my wonderwall

F#m7 A Esus4 B7sus4
Today was gonna be the day but they'll never throw it back to you
F#m7 A Esus4 B7sus4
By now you should've somehow realized what you're not to do
F#m7 A Esus4 B7sus4
I don't believe that anybody feels the way I do
F#m7 A Esus4 B7sus4
About you now

f#|-------3---------2h3p2-------------------------------
C#|----------3-------------3----------------------------
A|-------------0-------------2-------------------------
E|--------------------------------------0---0----0h2-0-
B|---3-----------------------------0h2----2---2--------
F#|------------------------------0----------------------
Dadd9 Esus4 F#m7
And all the roads that lead you there were winding
f#|-------3---------2h3p2-------------------------------
C#|----------3-------------3----------------------------
A|-------------0-------------2-------------------------
E|-------------------------------------0-----0-----0--
B|---3-----------------------------0h2---0h2---0h2----
F#|------------------------------0----------------------
Dadd9 Esus4 F#m7
And all the lights that light the way are blinding
f#|-------3----------2h3p2--------
C#|----------3--------------3-----
A|-------------0--------------2--
E|-------------------------------
B|---3---------------------------
F#|-------------------------------
Dadd9 Esus4
There are many things that I
f#|-----3--------3--------3-------3-----------0----------0------------
C#|-------3--------3--------3-------3-----3-----3------3---3-------3--
A|---0--------0--------0-------0-----------0------------------------0
E|---------------------------0-------0h2----------2-2-------2-2-2----
B|-------------------------------------------------------------------
F#|-3--------2--------0----------------------------------------------- A Esus4/Ab F#m7 A B7sus4
would like to say to you but I don't know how

Dadd9 F#m7 A F#m7 Dadd9 F#m7 A
I said maybe You're gonna be the one that saves me
F#m7 Dadd9 F#m7 A F#m7 Dadd9 F#m7 A F#m7
And after all You're my wonderwall

- Essa última estrofe repete 3 vezes.
- Depois continua a mesma sequêcia de acordes 4 vezes junto com o seguinte riff:
Dadd9 F#m7 A F#m7
f#|--------3--0-------------3--0----
C#|-1-0-1----------1--0--1----------
A|---------------------------------
E|---------------------------------
B|---------------------------------
F#|---------------------------------

10 Melhores Headline Animator

Escolha pelo nome da música

Receba via email

Enter your email address:

Delivered by FeedBurner